Hogyan játszd el gitáron a Unknown Artist – Virus Of An Insanity dalt?

Unknown Artist Virus Of An Insanity – GITÁR PRO TAB, KOTTA, AKKORDOK

Kotta típusa: Acustic2

(Általában egy zeneszám minden kottája: gitár, szólógitár, basszusgitár, ének, zongora, dob stb. megtalálható az oldalon, de mindegyik egy külön bejegyzésben. Ha egy másik hangszer gitártabos kottáját keresed, akkor az oldal alján vagy a keresőben megtalálod. Sokszor a zenekar tagjának a neve lesz a kotta kategóriája.)

        


E|----------------------|----------------------|--------|----------------------|----------------------|
B|----------------------|----------------------|--------|----------------------|----------------------|
G|-%-------%------%-----|-%-------%------%-----|-%------|-%-------%------%-----|-%-------%------%-----|
D|-%-------%------%-----|-%-------%------%-----|-%------|-%-------%------%-----|-%-------%------%-----|
A|----------------------|----------------------|--------|----------------------|----------------------|
E|----------------------|----------------------|--------|----------------------|----------------------|


E|--------|----------------------|----------------------|--------|----------------------|
B|--------|----------------------|----------------------|--------|----------------------|
G|-%------|-%-------%------%-----|-%-------%------%-----|-%------|-%-------%------%-----|
D|-%------|-%-------%------%-----|-%-------%------%-----|-%------|-%-------%------%-----|
A|--------|----------------------|----------------------|--------|----------------------|
E|--------|----------------------|----------------------|--------|----------------------|


E|----------------------|--------|-12-----15-----13----12------|-10---12----13---15----13----12----10----12-----|
B|----------------------|--------|-----------------------------|------------------------------------------------|
G|-%-------%------%-----|-%------|-----------------------------|------------------------------------------------|
D|-%-------%------%-----|-%------|-----------------------------|------------------------------------------------|
A|----------------------|--------|-----------------------------|------------------------------------------------|
E|----------------------|--------|-----------------------------|------------------------------------------------|


E|-------------|-12---13---12---10------------------------------------|--------------------------10---12---13---15---12----13---12---15-----|
B|-0-----1-----|---------------------12---13---12---10---12-----------|-10---12---13---12---13----------------------------------------------|
G|-2-----2-----|-----------------------------------------------12-----|---------------------------------------------------------------------|
D|-0-----0-----|------------------------------------------------------|---------------------------------------------------------------------|
A|-------------|------------------------------------------------------|---------------------------------------------------------------------|
E|-------------|------------------------------------------------------|---------------------------------------------------------------------|


E|-------------|-15--13--15---13--12--13---12--10--12---13----12---13---15-----|-13----12----------13----12----------------|
B|-0-----1-----|---------------------------------------------------------------|-------------13----------------15----13----|
G|-2-----2-----|---------------------------------------------------------------|-------------------------------------------|
D|-0-----0-----|---------------------------------------------------------------|-------------------------------------------|
A|-------------|---------------------------------------------------------------|-------------------------------------------|
E|-------------|---------------------------------------------------------------|-------------------------------------------|


E|-------------|-17---17---17---15---15---15---13---13---13---12---12---12---13---15---17---15-----|
B|-15----17----|-----------------------------------------------------------------------------------|
G|-------------|-----------------------------------------------------------------------------------|
D|-------------|-----------------------------------------------------------------------------------|
A|-------------|-----------------------------------------------------------------------------------|
E|-------------|-----------------------------------------------------------------------------------|


E|-15---13---12---15---13------------------------------------------|---------------------|
B|--------------------------15---13---15---13---12----13----10-----|-12----13----13------|
G|-----------------------------------------------------------------|---------------------|
D|-----------------------------------------------------------------|---------------------|
A|-----------------------------------------------------------------|---------------------|
E|-----------------------------------------------------------------|---------------------|


E|---------|---------|--------|---------|---------|--------|---------|---------|--------|
B|---------|---------|--------|---------|---------|--------|---------|---------|--------|
G|-%-------|-%-------|-%------|-%-------|-%-------|-%------|-%-------|-%-------|-%------|
D|-%-------|-%-------|-%------|-%-------|-%-------|-%------|-%-------|-%-------|-%------|
A|---------|---------|--------|---------|---------|--------|---------|---------|--------|
E|---------|---------|--------|---------|---------|--------|---------|---------|--------|


E|---------|---------|--------|---------|---------|--------|---------|---------|--------|
B|---------|---------|--------|---------|---------|--------|---------|---------|--------|
G|-%-------|-%-------|-%------|-%-------|-%-------|-%------|-%-------|-%-------|-%------|
D|-%-------|-%-------|-%------|-%-------|-%-------|-%------|-%-------|-%-------|-%------|
A|---------|---------|--------|---------|---------|--------|---------|---------|--------|
E|---------|---------|--------|---------|---------|--------|---------|---------|--------|


E|---------|---------|---------|-------------------------------------------------------------------------------------------------------|
B|---------|---------|---------|-------------------------------------------------------------------------------------------------------|
G|-%-------|-%-------|-%-------|-------------------------------------------------------------------------------------------------------|
D|-%-------|-%-------|-%-------|-----2-------2-------2-------2-------2-------2-------3-------3-------3-------3-------3-------3---3-----|
A|---------|---------|---------|---------2-------2-------2-------2-------2---------------3-------3-------3-------3-------3-------3-----|
E|---------|---------|---------|-0-----------------------------------------------0-----------------------------------------------1-----|


E|-------------------------------------------------------------------------------------------------------|
B|-------------------------------------------------------------------------------------------------------|
G|-------------------------------------------------------------------------------------------------------|
D|-----2-------2-------2-------2-------2-------2-------3-------3-------3-------3-------3-------3---3-----|
A|---------2-------2-------2-------2-------2---------------3-------3-------3-------3-------3-------3-----|
E|-0-----------------------------------------------0-----------------------------------------------1-----|


E|-------------|-------------------------------------------------------------------------------------------------------|
B|-------------|-------------------------------------------------------------------------------------------------------|
G|-------------|-------------------------------------------------------------------------------------------------------|
D|-0-----2-----|-----2-------2-------2-------2-------2-------2-------3-------3-------3-------3-------3-------3---3-----|
A|-3-----3-----|---------2-------2-------2-------2-------2---------------3-------3-------3-------3-------3-------3-----|
E|-1-----1-----|-0-----------------------------------------------0-----------------------------------------------1-----|


E|-------------------------------------------------------------------------------------------------------|
B|-------------------------------------------------------------------------------------------------------|
G|-------------------------------------------------------------------------------------------------------|
D|-----2-------2-------2-------2-------2-------2-------3-------3-------3-------3-------3-------3---3-----|
A|---------2-------2-------2-------2-------2---------------3-------3-------3-------3-------3-------3-----|
E|-0-----------------------------------------------0-----------------------------------------------1-----|


E|-------------|-------------------------------------------------------------------------------------------------------|
B|-------------|-------------------------------------------------------------------------------------------------------|
G|-------------|-------------------------------------------------------------------------------------------------------|
D|-0-----2-----|-----2-------2-------2-------2-------2-------2-------3-------3-------3-------3-------3-------3---3-----|
A|-3-----3-----|---------2-------2-------2-------2-------2---------------3-------3-------3-------3-------3-------3-----|
E|-1-----1-----|-0-----------------------------------------------0-----------------------------------------------1-----|


E|-------------------------------------------------------------------------------------------------------|
B|-------------------------------------------------------------------------------------------------------|
G|-------------------------------------------------------------------------------------------------------|
D|-----2-------2-------2-------2-------2-------2-------3-------3-------3-------3-------3-------3---3-----|
A|---------2-------2-------2-------2-------2---------------3-------3-------3-------3-------3-------3-----|
E|-0-----------------------------------------------0-----------------------------------------------1-----|


E|-------------|-------------------------------------------------------------------------------------------------------|
B|-------------|-------------------------------------------------------------------------------------------------------|
G|-------------|-------------------------------------------------------------------------------------------------------|
D|-0-----2-----|-----2-------2-------2-------2-------2-------2-------3-------3-------3-------3-------3-------3---3-----|
A|-3-----3-----|---------2-------2-------2-------2-------2---------------3-------3-------3-------3-------3-------3-----|
E|-1-----1-----|-0-----------------------------------------------0-----------------------------------------------1-----|


E|-------------------------------------------------------------------------------------------------------|
B|-------------------------------------------------------------------------------------------------------|
G|-------------------------------------------------------------------------------------------------------|
D|-----2-------2-------2-------2-------2-------2-------3-------3-------3-------3-------3-------3---3-----|
A|---------2-------2-------2-------2-------2---------------3-------3-------3-------3-------3-------3-----|
E|-0-----------------------------------------------0-----------------------------------------------1-----|


E|-------------|-------------------------------------------------------------------------------------------------------|
B|-------------|-------------------------------------------------------------------------------------------------------|
G|-------------|-------------------------------------------------------------------------------------------------------|
D|-0-----2-----|-----2-------2-------2-------2-------2-------2-------3-------3-------3-------3-------3-------3---3-----|
A|-3-----3-----|---------2-------2-------2-------2-------2---------------3-------3-------3-------3-------3-------3-----|
E|-1-----1-----|-0-----------------------------------------------0-----------------------------------------------1-----|


E|-------------------------------------------------------------------------------------------------------|
B|-------------------------------------------------------------------------------------------------------|
G|-------------------------------------------------------------------------------------------------------|
D|-----2-------2-------2-------2-------2-------2-------3-------3-------3-------3-------3-------3---3-----|
A|---------2-------2-------2-------2-------2---------------3-------3-------3-------3-------3-------3-----|
E|-0-----------------------------------------------0-----------------------------------------------1-----|


E|-------------|-------------------------------------------------------------------------------------------------------|
B|-------------|-------------------------------------------------------------------------------------------------------|
G|-------------|-------------------------------------------------------------------------------------------------------|
D|-0-----2-----|-----2-------2-------2-------2-------2-------2-------3-------3-------3-------3-------3-------3---3-----|
A|-3-----3-----|---------2-------2-------2-------2-------2---------------3-------3-------3-------3-------3-------3-----|
E|-1-----1-----|-0-----------------------------------------------0-----------------------------------------------1-----|


E|-------------------------------------------------------------------------------------------------------|
B|-------------------------------------------------------------------------------------------------------|
G|-------------------------------------------------------------------------------------------------------|
D|-----2-------2-------2-------2-------2-------2-------3-------3-------3-------3-------3-------3---3-----|
A|---------2-------2-------2-------2-------2---------------3-------3-------3-------3-------3-------3-----|
E|-0-----------------------------------------------0-----------------------------------------------1-----|


E|-------------|-------------------------------------------------------------------------------------------------------|
B|-------------|-------------------------------------------------------------------------------------------------------|
G|-------------|-------------------------------------------------------------------------------------------------------|
D|-0-----2-----|-----2-------2-------2-------2-------2-------2-------3-------3-------3-------3-------3-------3---3-----|
A|-3-----3-----|---------2-------2-------2-------2-------2---------------3-------3-------3-------3-------3-------3-----|
E|-1-----1-----|-0-----------------------------------------------0-----------------------------------------------1-----|


E|-------------------------------------------------------------------------------------------------------|
B|-------------------------------------------------------------------------------------------------------|
G|-------------------------------------------------------------------------------------------------------|
D|-----2-------2-------2-------2-------2-------2-------3-------3-------3-------3-------3-------3---3-----|
A|---------2-------2-------2-------2-------2---------------3-------3-------3-------3-------3-------3-----|
E|-0-----------------------------------------------0-----------------------------------------------1-----|


E|-------------|-------------------------------------------------------------------------------------------------------|
B|-------------|-------------------------------------------------------------------------------------------------------|
G|-------------|-------------------------------------------------------------------------------------------------------|
D|-0-----2-----|-----2-------2-------2-------2-------2-------2-------3-------3-------3-------3-------3-------3---3-----|
A|-3-----3-----|---------2-------2-------2-------2-------2---------------3-------3-------3-------3-------3-------3-----|
E|-1-----1-----|-0-----------------------------------------------0-----------------------------------------------1-----|


E|-------------------------------------------------------------------------------------------------------|
B|-------------------------------------------------------------------------------------------------------|
G|-------------------------------------------------------------------------------------------------------|
D|-----2-------2-------2-------2-------2-------2-------3-------3-------3-------3-------3-------3---3-----|
A|---------2-------2-------2-------2-------2---------------3-------3-------3-------3-------3-------3-----|
E|-0-----------------------------------------------0-----------------------------------------------1-----|


E|-------------|-------------------------------------------------------------------------------------------------------|
B|-------------|-------------------------------------------------------------------------------------------------------|
G|-------------|-----5-------5-------5-------5-------5-------5-------2-------2-------2-------2-------2-------2---4-----|
D|-0-----2-----|---------5-------5-------5-------5-------5---------------2-------2-------2-------2-------2-------3-----|
A|-3-----3-----|-3-----------------------------------------------0-----------------------------------------------2-----|
E|-1-----1-----|-------------------------------------------------------------------------------------------------------|


E|-------------|-------------------------------------------------------------------------------------------------------|
B|-------------|-------------------------------------------------------------------------------------------------------|
G|-0-----2-----|-----5-------5-------5-------5-------5-------5-------2-------2-------2-------2-------2-------2---4-----|
D|-3-----3-----|---------5-------5-------5-------5-------5---------------2-------2-------2-------2-------2-------3-----|
A|-2-----2-----|-3-----------------------------------------------0-----------------------------------------------2-----|
E|-------------|-------------------------------------------------------------------------------------------------------|


E|-------------|-------------------------------------------------------------------------------------------------------|
B|-------------|-------------------------------------------------------------------------------------------------------|
G|-0-----2-----|-----5-------5-------5-------5-------5-------5-------2-------2-------2-------2-------2-------2---4-----|
D|-3-----3-----|---------5-------5-------5-------5-------5---------------2-------2-------2-------2-------2-------3-----|
A|-2-----2-----|-3-----------------------------------------------0-----------------------------------------------2-----|
E|-------------|-------------------------------------------------------------------------------------------------------|


E|-------------|-------------------------------------------------------------------------------------------------------|
B|-------------|-------------------------------------------------------------------------------------------------------|
G|-0-----2-----|-----5-------5-------5-------5-------5-------5-------2-------2-------2-------2-------2-------2---4-----|
D|-3-----3-----|---------5-------5-------5-------5-------5---------------2-------2-------2-------2-------2-------3-----|
A|-2-----2-----|-3-----------------------------------------------0-----------------------------------------------2-----|
E|-------------|-------------------------------------------------------------------------------------------------------|


E|-------------|-------------------------------------------------------------------------------------------------------|
B|-------------|-------------------------------------------------------------------------------------------------------|
G|-0-----2-----|-----2-------2-------2-------2-------2-------2-------4-------4-------4-------4-------4-------4---4-----|
D|-3-----3-----|---------2-------2-------2-------2-------2---------------4-------4-------4-------4-------4-------4-----|
A|-2-----2-----|-0-----------------------------------------------0-----------------------------------------------2-----|
E|-------------|-------------------------------------------------------------------------------------------------------|


E|-------------------------------------------------------------------------------------------------------|
B|-------------------------------------------------------------------------------------------------------|
G|-----2-------2-------2-------2-------2-------2-------4-------4-------4-------4-------4-------4---4-----|
D|---------2-------2-------2-------2-------2---------------4-------4-------4-------4-------4-------4-----|
A|-0-----------------------------------------------0-----------------------------------------------2-----|
E|-------------------------------------------------------------------------------------------------------|


E|-------------|-------------------------------------------------------------------------------------------------------|
B|-------------|-------------------------------------------------------------------------------------------------------|
G|-0-----2-----|-----2-------2-------2-------2-------2-------2-------4-------4-------4-------4-------4-------4---4-----|
D|-4-----4-----|---------2-------2-------2-------2-------2---------------4-------4-------4-------4-------4-------4-----|
A|-2-----2-----|-0-----------------------------------------------0-----------------------------------------------2-----|
E|-------------|-------------------------------------------------------------------------------------------------------|


E|-------------------------------------------------------------------------------------------------------|
B|-------------------------------------------------------------------------------------------------------|
G|-----2-------2-------2-------2-------2-------2-------4-------4-------4-------4-------4-------4---4-----|
D|---------2-------2-------2-------2-------2---------------4-------4-------4-------4-------4-------4-----|
A|-0-----------------------------------------------0-----------------------------------------------2-----|
E|-------------------------------------------------------------------------------------------------------|


E|-------------|-------------------------------------------------------------------------------------------------------|
B|-------------|-------------------------------------------------------------------------------------------------------|
G|-0-----2-----|-----2-------2-------2-------2-------2-------2-------4-------4-------4-------4-------4-------4---4-----|
D|-4-----4-----|---------2-------2-------2-------2-------2---------------4-------4-------4-------4-------4-------4-----|
A|-2-----2-----|-0-----------------------------------------------0-----------------------------------------------2-----|
E|-------------|-------------------------------------------------------------------------------------------------------|


E|-------------------------------------------------------------------------------------------------------|
B|-------------------------------------------------------------------------------------------------------|
G|-----2-------2-------2-------2-------2-------2-------4-------4-------4-------4-------4-------4---4-----|
D|---------2-------2-------2-------2-------2---------------4-------4-------4-------4-------4-------4-----|
A|-0-----------------------------------------------0-----------------------------------------------2-----|
E|-------------------------------------------------------------------------------------------------------|


E|-------------|-------------------------------------------------------------------------------------------------------|
B|-------------|-------------------------------------------------------------------------------------------------------|
G|-0-----2-----|-----2-------2-------2-------2-------2-------2-------4-------4-------4-------4-------4-------4---4-----|
D|-4-----4-----|---------2-------2-------2-------2-------2---------------4-------4-------4-------4-------4-------4-----|
A|-2-----2-----|-0-----------------------------------------------0-----------------------------------------------2-----|
E|-------------|-------------------------------------------------------------------------------------------------------|


E|-------------------------------------------------------------------------------------------------------|
B|-------------------------------------------------------------------------------------------------------|
G|-----2-------2-------2-------2-------2-------2-------4-------4-------4-------4-------4-------4---4-----|
D|---------2-------2-------2-------2-------2---------------4-------4-------4-------4-------4-------4-----|
A|-0-----------------------------------------------0-----------------------------------------------2-----|
E|-------------------------------------------------------------------------------------------------------|


E|-----------------|
B|-----------------|
G|-4-------4-------|
D|-4-------4-------|
A|-2-------2-------|
E|-----------------|

    

Nézd meg a videót és ismerd meg a leggyorsabb utat, hogyan tanulhatod meg kedvenc számaid gitáron!