Hogyan játszd el gitáron a Unknown Artist – Virus Of An Insanity dalt?

Unknown Artist Virus Of An Insanity – GITÁR PRO TAB, KOTTA, AKKORDOK

Kotta típusa: Overdrive1

(Általában egy zeneszám minden kottája: gitár, szólógitár, basszusgitár, ének, zongora, dob stb. megtalálható az oldalon, de mindegyik egy külön bejegyzésben. Ha egy másik hangszer gitártabos kottáját keresed, akkor az oldal alján vagy a keresőben megtalálod. Sokszor a zenekar tagjának a neve lesz a kotta kategóriája.)

        


E|----------------------|----------------------|--------|----------------------|----------------------|
B|----------------------|----------------------|--------|----------------------|----------------------|
G|-%-------%------%-----|-%-------%------%-----|-%------|-%-------%------%-----|-%-------%------%-----|
D|-%-------%------%-----|-%-------%------%-----|-%------|-%-------%------%-----|-%-------%------%-----|
A|----------------------|----------------------|--------|----------------------|----------------------|
E|----------------------|----------------------|--------|----------------------|----------------------|


E|--------|----------------------|----------------------|--------|----------------------|
B|--------|----------------------|----------------------|--------|----------------------|
G|-%------|-%-------%------%-----|-%-------%------%-----|-%------|-%-------%------%-----|
D|-%------|-%-------%------%-----|-%-------%------%-----|-%------|-%-------%------%-----|
A|--------|----------------------|----------------------|--------|----------------------|
E|--------|----------------------|----------------------|--------|----------------------|


E|----------------------|--------|----------------------|----------------------|--------|
B|----------------------|--------|----------------------|----------------------|--------|
G|-%-------%------%-----|-%------|-%-------%------%-----|-%-------%------%-----|-%------|
D|-%-------%------%-----|-%------|-%-------%------%-----|-%-------%------%-----|-%------|
A|----------------------|--------|----------------------|----------------------|--------|
E|----------------------|--------|----------------------|----------------------|--------|


E|----------------------|----------------------|--------|-----------------------|-----------------------|
B|----------------------|----------------------|--------|-----------------------|-----------------------|
G|-%-------%------%-----|-%-------%------%-----|-%------|-----------------------|-----------------------|
D|-%-------%------%-----|-%-------%------%-----|-%------|-2-------3-------3-----|-2-------3-------3-----|
A|----------------------|----------------------|--------|-2-------3-------3-----|-2-------3-------3-----|
E|----------------------|----------------------|--------|-0---------------1-----|-0---------------1-----|


E|-------------|-----------------------|-----------------------|---------------------|
B|-------------|-----------------------|-----------------------|---------------------|
G|-------------|-----------------------|-----------------------|---------------------|
D|-------------|-2-------3-------3-----|-2-------3-------3-----|---------------------|
A|-3-----3-----|-2-------3-------3-----|-2-------3-------3-----|-3-----3-----3-------|
E|-1-----1-----|-0---------------1-----|-0---------------1-----|-1-----1-----1-------|


E|-------------------------------------------------------------------------------------------------|
B|-------------------------------------------------------------------------------------------------|
G|-------------------------------------------------------------------------------------------------|
D|-----2---------------2---------------2---------------2---------------2---------------2-----------|
A|---------2---0-----------2---0-----------2---0-----------2---0-----------2---0-----------2---0---|
E|-0---------------0---------------0---------------0---------------0---------------0---------------|


E|-------------------------------------------------------------------------------------------------|
B|-------------------------------------------------------------------------------------------------|
G|-------------------------------------------------------------------------------------------------|
D|-----3-----------3-----------3-----------3-----------3-----------3-----------3-----------3-------|
A|---------3-----------3-----------3-----------3-----------3-----------3-----------3-----------3---|
E|-1-----------1-----------1-----------1-----------1-----------1-----------1-----------1-----------|


E|-------------|-------------------------------------------------------------------------------------------------|
B|-0-----1-----|-------------------------------------------------------------------------------------------------|
G|-0-----2-----|-------------------------------------------------------------------------------------------------|
D|-2-----3-----|-----2---------------2---------------2---------------2---------------2---------------2-----------|
A|-------------|---------2---0-----------2---0-----------2---0-----------2---0-----------2---0-----------2---0---|
E|-------------|-0---------------0---------------0---------------0---------------0---------------0---------------|


E|-------------------------------------------------------------------------------------------------|
B|-------------------------------------------------------------------------------------------------|
G|-------------------------------------------------------------------------------------------------|
D|-----3-----------3-----------3-----------3-----------3-----------3-----------3-----------3-------|
A|---------3-----------3-----------3-----------3-----------3-----------3-----------3-----------3---|
E|-1-----------1-----------1-----------1-----------1-----------1-----------1-----------1-----------|


E|-0-----1-----|-------------------------------------------------------------------------------------------------|
B|-0-----1-----|-------------------------------------------------------------------------------------------------|
G|-0-----2-----|-------------------------------------------------------------------------------------------------|
D|-------------|-----2---------------2---------------2---------------2---------------2---------------2-----------|
A|-------------|---------2---0-----------2---0-----------2---0-----------2---0-----------2---0-----------2---0---|
E|-------------|-0---------------0---------------0---------------0---------------0---------------0---------------|


E|-------------------------------------------------------------------------------------------------|
B|-------------------------------------------------------------------------------------------------|
G|-------------------------------------------------------------------------------------------------|
D|-----3-----------3-----------3-----------3-----------3-----------3-----------3-----------3-------|
A|---------3-----------3-----------3-----------3-----------3-----------3-----------3-----------3---|
E|-1-----------1-----------1-----------1-----------1-----------1-----------1-----------1-----------|


E|-------------|-------------------------------------------------------------------------------------------------|
B|-0-----1-----|-------------------------------------------------------------------------------------------------|
G|-0-----2-----|-------------------------------------------------------------------------------------------------|
D|-2-----3-----|-----2---------------2---------------2---------------2---------------2---------------2-----------|
A|-------------|---------2---0-----------2---0-----------2---0-----------2---0-----------2---0-----------2---0---|
E|-------------|-0---------------0---------------0---------------0---------------0---------------0---------------|


E|-------------------------------------------------------------------------------------------------|
B|-------------------------------------------------------------------------------------------------|
G|-------------------------------------------------------------------------------------------------|
D|-----3-----------3-----------3-----------3-----------3-----------3-----------3-----------3-------|
A|---------3-----------3-----------3-----------3-----------3-----------3-----------3-----------3---|
E|-1-----------1-----------1-----------1-----------1-----------1-----------1-----------1-----------|


E|-0-----1-----|-------------------------------------------------------------------------------------------------|
B|-0-----1-----|-------------------------------------------------------------------------------------------------|
G|-0-----2-----|-------------------------------------------------------------------------------------------------|
D|-------------|-----2---------------2---------------2---------------2---------------2---------------2-----------|
A|-------------|---------2---0-----------2---0-----------2---0-----------2---0-----------2---0-----------2---0---|
E|-------------|-0---------------0---------------0---------------0---------------0---------------0---------------|


E|-------------------------------------------------------------------------------------------------|
B|-------------------------------------------------------------------------------------------------|
G|-------------------------------------------------------------------------------------------------|
D|-----3-----------3-----------3-----------3-----------3-----------3-----------3-----------3-------|
A|---------3-----------3-----------3-----------3-----------3-----------3-----------3-----------3---|
E|-1-----------1-----------1-----------1-----------1-----------1-----------1-----------1-----------|


E|-------------|-------------------------------------------------------------------------------------------------|
B|-0-----1-----|-------------------------------------------------------------------------------------------------|
G|-0-----2-----|-------------------------------------------------------------------------------------------------|
D|-2-----3-----|-----2---------------2---------------2---------------2---------------2---------------2-----------|
A|-------------|---------2---0-----------2---0-----------2---0-----------2---0-----------2---0-----------2---0---|
E|-------------|-0---------------0---------------0---------------0---------------0---------------0---------------|


E|-------------------------------------------------------------------------------------------------|
B|-------------------------------------------------------------------------------------------------|
G|-------------------------------------------------------------------------------------------------|
D|-----3-----------3-----------3-----------3-----------3-----------3-----------3-----------3-------|
A|---------3-----------3-----------3-----------3-----------3-----------3-----------3-----------3---|
E|-1-----------1-----------1-----------1-----------1-----------1-----------1-----------1-----------|


E|-0-----1-----|-------------------------------------------------------------------------------------------------|
B|-0-----1-----|-------------------------------------------------------------------------------------------------|
G|-0-----2-----|-------------------------------------------------------------------------------------------------|
D|-------------|-----2---------------2---------------2---------------2---------------2---------------2-----------|
A|-------------|---------2---0-----------2---0-----------2---0-----------2---0-----------2---0-----------2---0---|
E|-------------|-0---------------0---------------0---------------0---------------0---------------0---------------|


E|-------------------------------------------------------------------------------------------------|
B|-------------------------------------------------------------------------------------------------|
G|-------------------------------------------------------------------------------------------------|
D|-----3-----------3-----------3-----------3-----------3-----------3-----------3-----------3-------|
A|---------3-----------3-----------3-----------3-----------3-----------3-----------3-----------3---|
E|-1-----------1-----------1-----------1-----------1-----------1-----------1-----------1-----------|


E|-0-----1-----3------|-----------------------|-----------------------|-------------|
B|-0-----1-----3------|-----------------------|-----------------------|-------------|
G|-0-----2-----4------|-----------------------|-----------------------|-------------|
D|--------------------|-2-------3-------3-----|-2-------3-------3-----|-------------|
A|--------------------|-2-------3-------3-----|-2-------3-------3-----|-3-----3-----|
E|--------------------|-0---------------1-----|-0---------------1-----|-1-----1-----|


E|-----------------------|-----------------------|-------------|-----------------------|
B|-----------------------|-----------------------|-------------|-----------------------|
G|-----------------------|-----------------------|-------------|-----------------------|
D|-2-------3-------3-----|-2-------3-------3-----|-------------|-2-------3-------3-----|
A|-2-------3-------3-----|-2-------3-------3-----|-3-----3-----|-2-------3-------3-----|
E|-0---------------1-----|-0---------------1-----|-1-----1-----|-0---------------1-----|


E|-----------------------|-------------|-----------------------|-----------------------|
B|-----------------------|-------------|-----------------------|-----------------------|
G|-----------------------|-------------|-----------------------|-----------------------|
D|-2-------3-------3-----|-------------|-2-------3-------3-----|-2-------3-------3-----|
A|-2-------3-------3-----|-3-----3-----|-2-------3-------3-----|-2-------3-------3-----|
E|-0---------------1-----|-1-----1-----|-0---------------1-----|-0---------------1-----|


E|-------------|-----------------------|-----------------------|-------------|-----------------------|
B|-------------|-----------------------|-----------------------|-------------|-----------------------|
G|-------------|-----------------------|-----------------------|-------------|-----------------------|
D|-------------|-2-------3-------3-----|-2-------3-------3-----|-------------|-2-------3-------3-----|
A|-3-----3-----|-2-------3-------3-----|-2-------3-------3-----|-3-----3-----|-2-------3-------3-----|
E|-1-----1-----|-0---------------1-----|-0---------------1-----|-1-----1-----|-0---------------1-----|


E|-----------------------|-------------|-----------------------|-----------------------|
B|-----------------------|-------------|-----------------------|-----------------------|
G|-----------------------|-------------|-----------------------|-----------------------|
D|-2-------3-------3-----|-------------|-2-------3-------3-----|-2-------3-------3-----|
A|-2-------3-------3-----|-3-----3-----|-2-------3-------3-----|-2-------3-------3-----|
E|-0---------------1-----|-1-----1-----|-0---------------1-----|-0---------------1-----|


E|-------------|-----------------------|-----------------------|-------------|-----------------------|
B|-------------|-----------------------|-----------------------|-------------|-----------------------|
G|-------------|-----------------------|-----------------------|-------------|-----------------------|
D|-------------|-2-------3-------3-----|-2-------3-------3-----|-------------|-5-------2-------------|
A|-3-----3-----|-2-------3-------3-----|-2-------3-------3-----|-3-----3-----|-3-------0-------5-----|
E|-1-----1-----|-0---------------1-----|-0---------------1-----|-1-----1-----|-----------------7-----|


E|-------------|-----------------------|-------------|-----------------------|-------------|
B|-------------|-----------------------|-------------|-----------------------|-------------|
G|-------------|-----------------------|-------------|-----------------------|-------------|
D|-------------|-5-------2-------------|-------------|-5-------2-------------|-------------|
A|-5-----5-----|-3-------0-------5-----|-5-----5-----|-3-------0-------5-----|-5-----5-----|
E|-7-----7-----|-----------------7-----|-7-----7-----|-----------------7-----|-7-----7-----|


E|-----------------------|-------------|-----------------------|-----------------------|
B|-----------------------|-------------|-----------------------|-----------------------|
G|-----------------------|-------------|---------4-------------|---------4-------------|
D|-5-------2-------------|-------------|-2-------4-------4-----|-2-------4-------4-----|
A|-3-------0-------5-----|-5-----5-----|-0---------------2-----|-0---------------2-----|
E|-----------------7-----|-7-----7-----|-----------------------|-----------------------|


E|-------------|-----------------------|-----------------------|-------------|-----------------------|
B|-------------|-----------------------|-----------------------|-------------|-----------------------|
G|-------------|---------4-------------|---------4-------------|-------------|---------4-------------|
D|-4-----4-----|-2-------4-------4-----|-2-------4-------4-----|-4-----4-----|-2-------4-------4-----|
A|-2-----2-----|-0---------------2-----|-0---------------2-----|-2-----2-----|-0---------------2-----|
E|-------------|-----------------------|-----------------------|-------------|-----------------------|


E|-----------------------|-------------|-----------------------|-----------------------|
B|-----------------------|-------------|-----------------------|-----------------------|
G|---------4-------------|-------------|---------4-------------|---------4-------------|
D|-2-------4-------4-----|-4-----4-----|-2-------4-------4-----|-2-------4-------4-----|
A|-0---------------2-----|-2-----2-----|-0---------------2-----|-0---------------2-----|
E|-----------------------|-------------|-----------------------|-----------------------|


E|-----------------|
B|-----------------|
G|-4-------4-------|
D|-4-------4-------|
A|-2-------2-------|
E|-----------------|

    

Nézd meg a videót és ismerd meg a leggyorsabb utat, hogyan tanulhatod meg kedvenc számaid gitáron!