Hogyan játszd el gitáron a Unknown Artist – Virus Of An Insanity dalt?

Unknown Artist Virus Of An Insanity – GITÁR PRO TAB, KOTTA, AKKORDOK

Kotta típusa: Overdrive3

(Általában egy zeneszám minden kottája: gitár, szólógitár, basszusgitár, ének, zongora, dob stb. megtalálható az oldalon, de mindegyik egy külön bejegyzésben. Ha egy másik hangszer gitártabos kottáját keresed, akkor az oldal alján vagy a keresőben megtalálod. Sokszor a zenekar tagjának a neve lesz a kotta kategóriája.)

        


E|----------------------|----------------------|--------|----------------------|----------------------|
B|----------------------|----------------------|--------|----------------------|----------------------|
G|-%-------%------%-----|-%-------%------%-----|-%------|-%-------%------%-----|-%-------%------%-----|
D|-%-------%------%-----|-%-------%------%-----|-%------|-%-------%------%-----|-%-------%------%-----|
A|----------------------|----------------------|--------|----------------------|----------------------|
E|----------------------|----------------------|--------|----------------------|----------------------|


E|--------|----------------------|----------------------|--------|----------------------|
B|--------|----------------------|----------------------|--------|----------------------|
G|-%------|-%-------%------%-----|-%-------%------%-----|-%------|-%-------%------%-----|
D|-%------|-%-------%------%-----|-%-------%------%-----|-%------|-%-------%------%-----|
A|--------|----------------------|----------------------|--------|----------------------|
E|--------|----------------------|----------------------|--------|----------------------|


E|----------------------|--------|----------------------|----------------------|--------|
B|----------------------|--------|----------------------|----------------------|--------|
G|-%-------%------%-----|-%------|-%-------%------%-----|-%-------%------%-----|-%------|
D|-%-------%------%-----|-%------|-%-------%------%-----|-%-------%------%-----|-%------|
A|----------------------|--------|----------------------|----------------------|--------|
E|----------------------|--------|----------------------|----------------------|--------|


E|----------------------|----------------------|--------|----------------------|----------------------|
B|----------------------|----------------------|--------|----------------------|----------------------|
G|-%-------%------%-----|-%-------%------%-----|-%------|-%-------%------%-----|-%-------%------%-----|
D|-%-------%------%-----|-%-------%------%-----|-%------|-%-------%------%-----|-%-------%------%-----|
A|----------------------|----------------------|--------|----------------------|----------------------|
E|----------------------|----------------------|--------|----------------------|----------------------|


E|--------|----------------------|----------------------|----------------|----------------|
B|--------|----------------------|----------------------|----------------|----------------|
G|-%------|-%-------%------%-----|-%-------%------%-----|-%-------%------|-%-------%------|
D|-%------|-%-------%------%-----|-%-------%------%-----|-%-------%------|-%-------%------|
A|--------|----------------------|----------------------|----------------|----------------|
E|--------|----------------------|----------------------|----------------|----------------|


E|----------------|--------|----------------|----------------|--------|-19--0---0---17--0---0---15--0---0---17--0---0---20--0---0---19--0---0---17--0---0---15--13--12--|
B|----------------|--------|----------------|----------------|--------|-------------------------------------------------------------------------------------------------|
G|-%-------%------|-%------|-%-------%------|-%-------%------|-%------|-------------------------------------------------------------------------------------------------|
D|-%-------%------|-%------|-%-------%------|-%-------%------|-%------|-------------------------------------------------------------------------------------------------|
A|----------------|--------|----------------|----------------|--------|-------------------------------------------------------------------------------------------------|
E|----------------|--------|----------------|----------------|--------|-------------------------------------------------------------------------------------------------|


E|-19--0---0---17--0---0---15--0---0---17--0---0---20--0---0---19--0---0---17--0---0---15--13--12--|
B|-------------------------------------------------------------------------------------------------|
G|-------------------------------------------------------------------------------------------------|
D|-------------------------------------------------------------------------------------------------|
A|-------------------------------------------------------------------------------------------------|
E|-------------------------------------------------------------------------------------------------|


E|-0-----1-----|-20--15--15--19--15--15--17--15--15--15--12--12--13--12------12------------------------|
B|-------------|---------------------------------------------------------15------15--13--12--13--------|
G|-------------|---------------------------------------------------------------------------------14----|
D|-------------|---------------------------------------------------------------------------------------|
A|-------------|---------------------------------------------------------------------------------------|
E|-------------|---------------------------------------------------------------------------------------|


E|----------------------------------------------------------------------------------------------|
B|-13--0---0---12--0---0---15--0---0---13--0---0---17--0---0---15--0---0---13--0---0---12--10---|
G|----------------------------------------------------------------------------------------------|
D|----------------------------------------------------------------------------------------------|
A|----------------------------------------------------------------------------------------------|
E|----------------------------------------------------------------------------------------------|


E|-------------|----------------12--------12---13---12---13---15---13---12---15---13---15---17---17---17---|
B|-8-----6-----|-15---13---15--------15--------------------------------------------------------------------|
G|-------------|-------------------------------------------------------------------------------------------|
D|-------------|-------------------------------------------------------------------------------------------|
A|-------------|-------------------------------------------------------------------------------------------|
E|-------------|-------------------------------------------------------------------------------------------|


E|-15---13---17---17---15---17---15---13---17---17---15---17---15---13---17---17---17---17---|
B|-------------------------------------------------------------------------------------------|
G|-------------------------------------------------------------------------------------------|
D|-------------------------------------------------------------------------------------------|
A|-------------------------------------------------------------------------------------------|
E|-------------------------------------------------------------------------------------------|


E|-------------|-20---19--0---0---17--0---0---15--0---0---15---13--0---0---12--0---0---12---13--15---|
B|-17----18----|-------------------------------------------------------------------------------------|
G|-------------|-------------------------------------------------------------------------------------|
D|-------------|-------------------------------------------------------------------------------------|
A|-------------|-------------------------------------------------------------------------------------|
E|-------------|-------------------------------------------------------------------------------------|


E|-13---12--10---8----7---5----3---0---0---5---0---0---7---0---0---8---10--0---0---12--|
B|-------------------------------------------------------------------------------------|
G|-------------------------------------------------------------------------------------|
D|-------------------------------------------------------------------------------------|
A|-------------------------------------------------------------------------------------|
E|-------------------------------------------------------------------------------------|


E|-0-----1-----|-------------------------------------------------------------------------------------------------|
B|-------------|-------------------------------------------------------------------------------------------------|
G|-------------|-------------------------------------------------------------------------------------------------|
D|-------------|-----2---------------2---------------2---------------2---------------2---------------2-----------|
A|-------------|---------2---0-----------2---0-----------2---0-----------2---0-----------2---0-----------2---0---|
E|-------------|-0---------------0---------------0---------------0---------------0---------------0---------------|


E|-------------------------------------------------------------------------------------------------|
B|-------------------------------------------------------------------------------------------------|
G|-------------------------------------------------------------------------------------------------|
D|-----3-----------3-----------3-----------3-----------3-----------3-----------3-----------3-------|
A|---------3-----------3-----------3-----------3-----------3-----------3-----------3-----------3---|
E|-1-----------1-----------1-----------1-----------1-----------1-----------1-----------1-----------|


E|-0-----1-----3------|-3---------------|---------|--------|---------|---------|--------|
B|-0-----1-----3------|-3---------------|---------|--------|---------|---------|--------|
G|-0-----2-----4------|-4-------%-------|-%-------|-%------|-%-------|-%-------|-%------|
D|--------------------|---------%-------|-%-------|-%------|-%-------|-%-------|-%------|
A|--------------------|-----------------|---------|--------|---------|---------|--------|
E|--------------------|-----------------|---------|--------|---------|---------|--------|


E|---------|---------|--------|---------|---------|--------|---------|---------|--------|
B|---------|---------|--------|---------|---------|--------|---------|---------|--------|
G|-%-------|-%-------|-%------|-%-------|-%-------|-%------|-%-------|-%-------|-%------|
D|-%-------|-%-------|-%------|-%-------|-%-------|-%------|-%-------|-%-------|-%------|
A|---------|---------|--------|---------|---------|--------|---------|---------|--------|
E|---------|---------|--------|---------|---------|--------|---------|---------|--------|


E|---------|---------|--------|---------|---------|--------|---------|---------|--------|
B|---------|---------|--------|---------|---------|--------|---------|---------|--------|
G|-%-------|-%-------|-%------|-%-------|-%-------|-%------|-%-------|-%-------|-%------|
D|-%-------|-%-------|-%------|-%-------|-%-------|-%------|-%-------|-%-------|-%------|
A|---------|---------|--------|---------|---------|--------|---------|---------|--------|
E|---------|---------|--------|---------|---------|--------|---------|---------|--------|


E|-15--15--15--15--13---15---12----15--15--15--15--13---15---17----19----|-19----------|
B|-----------------------------------------------------------------------|-------18----|
G|-----------------------------------------------------------------------|-------------|
D|-----------------------------------------------------------------------|-------------|
A|-----------------------------------------------------------------------|-------------|
E|-----------------------------------------------------------------------|-------------|


E|-15--15--15--15--13---15---12----15--15--15--15--13---15---17----19----|-19----------|
B|-----------------------------------------------------------------------|-------18----|
G|-----------------------------------------------------------------------|-------------|
D|-----------------------------------------------------------------------|-------------|
A|-----------------------------------------------------------------------|-------------|
E|-----------------------------------------------------------------------|-------------|


E|-15--15--15--15--13---15---12----15--15--15--15--13---15---17----19----|-19----------|
B|-----------------------------------------------------------------------|-------18----|
G|-----------------------------------------------------------------------|-------------|
D|-----------------------------------------------------------------------|-------------|
A|-----------------------------------------------------------------------|-------------|
E|-----------------------------------------------------------------------|-------------|


E|-15--15--15--15--13---15---12----15--15--15--15--13---15---17----19----|-19----------|
B|-----------------------------------------------------------------------|-------18----|
G|-----------------------------------------------------------------------|-------------|
D|-----------------------------------------------------------------------|-------------|
A|-----------------------------------------------------------------------|-------------|
E|-----------------------------------------------------------------------|-------------|


E|-22---22---22---22----22----22-----22----22---22---|-19----20----19---17----15----14---12-----14---12---14---|
B|---------------------------------------------------|---------------------------------------------------------|
G|---------------------------------------------------|---------------------------------------------------------|
D|---------------------------------------------------|---------------------------------------------------------|
A|---------------------------------------------------|---------------------------------------------------------|
E|---------------------------------------------------|---------------------------------------------------------|


E|-15-----|-17---17---17---15---15---15---14---14---14---12---12---12---10---12---|
B|--------|-----------------------------------------------------------------------|
G|--------|-----------------------------------------------------------------------|
D|--------|-----------------------------------------------------------------------|
A|--------|-----------------------------------------------------------------------|
E|--------|-----------------------------------------------------------------------|


E|-14----15----17---15----15-----14---12---10---12---|-14---15-----|-15-----14---15---12---10---12-----12---12---12---|
B|------------------------17-----15---13---12--------|-------------|--------------------------------------------------|
G|---------------------------------------------------|-------------|--------------------------------------------------|
D|---------------------------------------------------|-------------|--------------------------------------------------|
A|---------------------------------------------------|-------------|--------------------------------------------------|
E|---------------------------------------------------|-------------|--------------------------------------------------|


E|-12-----12---10------------------------------------|--------|----------------------------------------------------12----|
B|------------------13---12----13---12----13---10----|-12-----|-13----12----10--------------------------12----13---------|
G|---------------------------------------------------|--------|------------------12----11----12---14---------------------|
D|---------------------------------------------------|--------|----------------------------------------------------------|
A|---------------------------------------------------|--------|----------------------------------------------------------|
E|---------------------------------------------------|--------|----------------------------------------------------------|


E|-14---15---14---12----14---12--------------------------------------|-----------------|
B|--------------------------------15---13---12---13---12---10--------|-12------12------|
G|--------------------------------------------------------------9----|-11------11------|
D|-------------------------------------------------------------------|-9-------9-------|
A|-------------------------------------------------------------------|-----------------|
E|-------------------------------------------------------------------|-----------------|

    

Nézd meg a videót és ismerd meg a leggyorsabb utat, hogyan tanulhatod meg kedvenc számaid gitáron!