Hogyan játszd el gitáron a Yngwie Malmsteen – Never Die dalt?

Yngwie Malmsteen Never Die – GITÁR PRO TAB, KOTTA, AKKORDOK

Kotta típusa: Vocal

(Általában egy zeneszám minden kottája: gitár, szólógitár, basszusgitár, ének, zongora, dob stb. megtalálható az oldalon, de mindegyik egy külön bejegyzésben. Ha egy másik hangszer gitártabos kottáját keresed, akkor az oldal alján vagy a keresőben megtalálod. Sokszor a zenekar tagjának a neve lesz a kotta kategóriája.)

        


D#|---------|---------|---------|---------|---------|---------|---------|---------|
A#|---------|---------|---------|---------|---------|---------|---------|---------|
F#|-%-------|-%-------|-%-------|-%-------|-%-------|-%-------|-%-------|-%-------|
C#|-%-------|-%-------|-%-------|-%-------|-%-------|-%-------|-%-------|-%-------|
G#|---------|---------|---------|---------|---------|---------|---------|---------|
D#|---------|---------|---------|---------|---------|---------|---------|---------|


D#|---------|---------|---------|---------|--------12----10----|-10-----8----8------|
A#|---------|---------|---------|---------|--------13----12----|-12-----10---10-----|
F#|-%-------|-%-------|-%-------|-%-------|-%------------------|--------------------|
C#|-%-------|-%-------|-%-------|-%-------|-%------------------|--------------------|
G#|---------|---------|---------|---------|--------------------|--------------------|
D#|---------|---------|---------|---------|--------------------|--------------------|


D#|-8-------|-8-------|-8-------|---------|---------|---------|---------|---------|
A#|-10------|-10------|-10------|---------|---------|---------|---------|---------|
F#|---------|---------|---------|-%-------|-%-------|-%-------|-%-------|-%-------|
C#|---------|---------|---------|-%-------|-%-------|-%-------|-%-------|-%-------|
G#|---------|---------|---------|---------|---------|---------|---------|---------|
D#|---------|---------|---------|---------|---------|---------|---------|---------|


D#|---------|---------|---------0-----|-8------7------5-----|-7------5------------|
A#|---------|---------|---------------|---------------------|---------------9-----|
F#|-%-------|-%-------|-%-------------|---------------------|---------------------|
C#|-%-------|-%-------|-%-------------|---------------------|---------------------|
G#|---------|---------|---------------|---------------------|---------------------|
D#|---------|---------|---------------|---------------------|---------------------|


D#|-5-------------------|---------------|-0-------|---------|---------|---------|-8------7------5-----|
A#|--------9------6-----|-6------5------|---------|---------|---------|---------|---------------------|
F#|---------------------|---------------|---------|-%-------|-%-------|-%-------|---------------------|
C#|---------------------|---------------|---------|-%-------|-%-------|-%-------|---------------------|
G#|---------------------|---------------|---------|---------|---------|---------|---------------------|
D#|---------------------|---------------|---------|---------|---------|---------|---------------------|


D#|-7-------------|-5------4------------|---------------|---------|---------------|
A#|---------5-----|---------------6-----|-6------5------|-5-------|-5------5------|
F#|---------------|---------------------|---------------|---------|---------------|
C#|---------------|---------------------|---------------|---------|---------------|
G#|---------------|---------------------|---------------|---------|---------------|
D#|---------------|---------------------|---------------|---------|---------------|


D#|---------|--------5-----7-----|-8-------|-8------10----10----|-12-----10-----8----8----|
A#|---------|--------------------|---------|--------------------|-------------------------|
F#|-%-------|-%------------------|---------|--------------------|-------------------------|
C#|-%-------|-%------------------|---------|--------------------|-------------------------|
G#|---------|--------------------|---------|--------------------|-------------------------|
D#|---------|--------------------|---------|--------------------|-------------------------|


D#|-10-----8------7-----|-8------5----5------|-5-------|-5-------------|---------|---------|
A#|---------------------|--------------------|---------|---------------|---------|---------|
F#|---------------------|--------------------|---------|--------%------|-%-------|-%-------|
C#|---------------------|--------------------|---------|--------%------|-%-------|-%-------|
G#|---------------------|--------------------|---------|---------------|---------|---------|
D#|---------------------|--------------------|---------|---------------|---------|---------|


D#|---------|---------|---------|-7------7------5-----|-7------5------------|-5-------------------|
A#|---------|---------|---------|---------------------|---------------9-----|--------9------6-----|
F#|-%-------|-%-------|-%-------|---------------------|---------------------|---------------------|
C#|-%-------|-%-------|-%-------|---------------------|---------------------|---------------------|
G#|---------|---------|---------|---------------------|---------------------|---------------------|
D#|---------|---------|---------|---------------------|---------------------|---------------------|


D#|---------------|-0-------|---------|---------|---------0-----|-8------7------5-----|
A#|-6------5------|---------|---------|---------|---------------|---------------------|
F#|---------------|---------|-%-------|-%-------|-%-------------|---------------------|
C#|---------------|---------|-%-------|-%-------|-%-------------|---------------------|
G#|---------------|---------|---------|---------|---------------|---------------------|
D#|---------------|---------|---------|---------|---------------|---------------------|


D#|-7-------------|-5------4------------|---------------|---------|---------------|
A#|---------5-----|---------------6-----|-6------5------|-5-------|-5------5------|
F#|---------------|---------------------|---------------|---------|---------------|
C#|---------------|---------------------|---------------|---------|---------------|
G#|---------------|---------------------|---------------|---------|---------------|
D#|---------------|---------------------|---------------|---------|---------------|


D#|---------|--------5-----7-----|-8-------|-8------10----10----|-12-----10-----8----8----|
A#|---------|--------------------|---------|--------------------|-------------------------|
F#|-%-------|-%------------------|---------|--------------------|-------------------------|
C#|-%-------|-%------------------|---------|--------------------|-------------------------|
G#|---------|--------------------|---------|--------------------|-------------------------|
D#|---------|--------------------|---------|--------------------|-------------------------|


D#|-10-----8------7-----|-8------5----5------|-5-------|-5-------------|--------5-----7-----|
A#|---------------------|--------------------|---------|---------------|--------------------|
F#|---------------------|--------------------|---------|--------%------|-%------------------|
C#|---------------------|--------------------|---------|--------%------|-%------------------|
G#|---------------------|--------------------|---------|---------------|--------------------|
D#|---------------------|--------------------|---------|---------------|--------------------|


D#|-8-------|-8------10----10----|-12-----10-----8-----|-10-----8------7-----|-8------5----5------|
A#|---------|--------------------|---------------------|---------------------|--------------------|
F#|---------|--------------------|---------------------|---------------------|--------------------|
C#|---------|--------------------|---------------------|---------------------|--------------------|
G#|---------|--------------------|---------------------|---------------------|--------------------|
D#|---------|--------------------|---------------------|---------------------|--------------------|


D#|-5-------|-5-------|---------|---------|---------|---------|---------|---------|
A#|---------|---------|---------|---------|---------|---------|---------|---------|
F#|---------|---------|-%-------|-%-------|-%-------|-%-------|-%-------|-%-------|
C#|---------|---------|-%-------|-%-------|-%-------|-%-------|-%-------|-%-------|
G#|---------|---------|---------|---------|---------|---------|---------|---------|
D#|---------|---------|---------|---------|---------|---------|---------|---------|


D#|---------|---------|---------|---------|---------|---------|---------|---------|
A#|---------|---------|---------|---------|---------|---------|---------|---------|
F#|-%-------|-%-------|-%-------|-%-------|-%-------|-%-------|-%-------|-%-------|
C#|-%-------|-%-------|-%-------|-%-------|-%-------|-%-------|-%-------|-%-------|
G#|---------|---------|---------|---------|---------|---------|---------|---------|
D#|---------|---------|---------|---------|---------|---------|---------|---------|


D#|---------|---------|---------|---------|---------|---------|---------|---------|
A#|---------|---------|---------|---------|---------|---------|---------|---------|
F#|-%-------|-%-------|-%-------|-%-------|-%-------|-%-------|-%-------|-%-------|
C#|-%-------|-%-------|-%-------|-%-------|-%-------|-%-------|-%-------|-%-------|
G#|---------|---------|---------|---------|---------|---------|---------|---------|
D#|---------|---------|---------|---------|---------|---------|---------|---------|


D#|---------|---------|---------|---------|---------|---------|---------|---------|
A#|---------|---------|---------|---------|---------|---------|---------|---------|
F#|-%-------|-%-------|-%-------|-%-------|-%-------|-%-------|-%-------|-%-------|
C#|-%-------|-%-------|-%-------|-%-------|-%-------|-%-------|-%-------|-%-------|
G#|---------|---------|---------|---------|---------|---------|---------|---------|
D#|---------|---------|---------|---------|---------|---------|---------|---------|


D#|---------|---------|---------|---------|---------|---------|---------|---------|
A#|---------|---------|---------|---------|---------|---------|---------|---------|
F#|-%-------|-%-------|-%-------|-%-------|-%-------|-%-------|-%-------|-%-------|
C#|-%-------|-%-------|-%-------|-%-------|-%-------|-%-------|-%-------|-%-------|
G#|---------|---------|---------|---------|---------|---------|---------|---------|
D#|---------|---------|---------|---------|---------|---------|---------|---------|


D#|---------|---------|---------|---------|---------|---------|---------|---------|
A#|---------|---------|---------|---------|---------|---------|---------|---------|
F#|-%-------|-%-------|-%-------|-%-------|-%-------|-%-------|-%-------|-%-------|
C#|-%-------|-%-------|-%-------|-%-------|-%-------|-%-------|-%-------|-%-------|
G#|---------|---------|---------|---------|---------|---------|---------|---------|
D#|---------|---------|---------|---------|---------|---------|---------|---------|


D#|---------|---------|---------|---------|---------|---------|---------|---------|
A#|---------|---------|---------|---------|---------|---------|---------|---------|
F#|-%-------|-%-------|-%-------|-%-------|-%-------|-%-------|-%-------|-%-------|
C#|-%-------|-%-------|-%-------|-%-------|-%-------|-%-------|-%-------|-%-------|
G#|---------|---------|---------|---------|---------|---------|---------|---------|
D#|---------|---------|---------|---------|---------|---------|---------|---------|


D#|---------|---------|---------|---------|---------|---------|---------|---------|
A#|---------|---------|---------|---------|---------|---------|---------|---------|
F#|-%-------|-%-------|-%-------|-%-------|-%-------|-%-------|-%-------|-%-------|
C#|-%-------|-%-------|-%-------|-%-------|-%-------|-%-------|-%-------|-%-------|
G#|---------|---------|---------|---------|---------|---------|---------|---------|
D#|---------|---------|---------|---------|---------|---------|---------|---------|


D#|---------|---------|---------|---------|---------|---------|---------|---------|
A#|---------|---------|---------|---------|---------|---------|---------|---------|
F#|-%-------|-%-------|-%-------|-%-------|-%-------|-%-------|-%-------|-%-------|
C#|-%-------|-%-------|-%-------|-%-------|-%-------|-%-------|-%-------|-%-------|
G#|---------|---------|---------|---------|---------|---------|---------|---------|
D#|---------|---------|---------|---------|---------|---------|---------|---------|


D#|---------|---------|---------|---------|---------|---------|---------|--------7-----7-----|
A#|---------|---------|---------|---------|---------|---------|---------|--------------------|
F#|-%-------|-%-------|-%-------|-%-------|-%-------|-%-------|-%-------|-%------------------|
C#|-%-------|-%-------|-%-------|-%-------|-%-------|-%-------|-%-------|-%------------------|
G#|---------|---------|---------|---------|---------|---------|---------|--------------------|
D#|---------|---------|---------|---------|---------|---------|---------|--------------------|


D#|-8------5----5------|-5-------|-5-------|-5-------|-12------------|-10------------|
A#|--------------------|---------|---------|---------|---------------|---------------|
F#|--------------------|---------|---------|---------|--------%------|--------%------|
C#|--------------------|---------|---------|---------|--------%------|--------%------|
G#|--------------------|---------|---------|---------|---------------|---------------|
D#|--------------------|---------|---------|---------|---------------|---------------|


D#|-10-----8------|-8------7------|-8-------|-8-------|-8-------|-7------8-----7-----|
A#|---------------|---------------|---------|---------|---------|--------------------|
F#|---------------|---------------|---------|---------|---------|--------------------|
C#|---------------|---------------|---------|---------|---------|--------------------|
G#|---------------|---------------|---------|---------|---------|--------------------|
D#|---------------|---------------|---------|---------|---------|--------------------|


D#|-7------5----5------|-5-------|---------|--------12----10----|-8-------|-8------12-----|
A#|--------------------|---------|---------|--------------------|---------|---------------|
F#|--------------------|---------|-%-------|-%------------------|---------|---------------|
C#|--------------------|---------|-%-------|-%------------------|---------|---------------|
G#|--------------------|---------|---------|--------------------|---------|---------------|
D#|--------------------|---------|---------|--------------------|---------|---------------|


D#|-12-----10-----|-10------|-8------7------|-7------5------|-5-------------|--------8-----7-----|
A#|---------------|---------|---------------|---------------|---------------|--------------------|
F#|---------------|---------|---------------|---------------|--------%------|-%------------------|
C#|---------------|---------|---------------|---------------|--------%------|-%------------------|
G#|---------------|---------|---------------|---------------|---------------|--------------------|
D#|---------------|---------|---------------|---------------|---------------|--------------------|


D#|-8-------|-8-------|-8-------|-7------8-----7-----|-7-------|-7-------------|-10-----8------|
A#|---------|---------|---------|--------------------|---------|---------------|---------------|
F#|---------|---------|---------|--------------------|---------|--------%------|---------------|
C#|---------|---------|---------|--------------------|---------|--------%------|---------------|
G#|---------|---------|---------|--------------------|---------|---------------|---------------|
D#|---------|---------|---------|--------------------|---------|---------------|---------------|


D#|--------5-----3-----|-5-------------|---------|---------|---------|---------|---------|
A#|--------------------|---------------|---------|---------|---------|---------|---------|
F#|-%------------------|--------%------|-%-------|-%-------|-%-------|-%-------|-%-------|
C#|-%------------------|--------%------|-%-------|-%-------|-%-------|-%-------|-%-------|
G#|--------------------|---------------|---------|---------|---------|---------|---------|
D#|--------------------|---------------|---------|---------|---------|---------|---------|


D#|---------|
A#|---------|
F#|-%-------|
C#|-%-------|
G#|---------|
D#|---------|

    

Nézd meg a videót és ismerd meg a leggyorsabb utat, hogyan tanulhatod meg kedvenc számaid gitáron!